Shop Guitar Quy Nhơn

Hướng dẫn đọc tab guitar căn bản

Danh sách các bản Intro Tab guitarquynhon đã soạn : https://guitarquynhon.com/blog/sheet-nhac/

Nhìn sơ qua thì tab có vẻ khá giống so với khuôn nhạc, thế nhưng điểm chung duy nhất giữa tab và khuôn nhạc đó là đọc từ trái sang phải thôi, còn lại khác hoàn toàn. Guitar Quy Nhơn sẽ giới thiệu với các bạn cách đọc tab guitar căn bản.

Sơ lược về tab guitar :

Tab guitar bình thường sẽ có 6 dòng kẻ, mỗi một dòng kẻ sẽ đại diện cho 1 sợi dây đàn guitar. Dòng kẻ dưới cùng sẽ thể hiện dây dày nhất, cứ như vậy theo đúng thứ tự thì dòng kẻ trên cùng sẽ là dây mỏng nhất. Cứ nhớ dòng kẻ dưới cùng là dây trầm nhất còn trên cùng là dây cao nhất là được.

E----------------------------||(Dây mỏng nhất)
B----------------------------||
G----------------------------||
D----------------------------||
A----------------------------||
E----------------------------||(Dây dày nhất)

Khác với bản nhạc là thay vì sử dụng lăng quăng, nòng nọc thì tab dùng con số cho mình biết phải đặt ngón tay lên chỗ nào của cây đàn. Nhìn dòng kẻ chúng ta biết nên đặt ngón tay lên dây nào vậy thì nhìn vào con số chúng ta sẽ biết phải đặt ngón tay lên ngăn thứ mấy của sợi dây tương ứng.

Ví dụ 1: 

Trong ví dụ này chúng ta thấy là phải đánh dây 1 phím số 3 trước sau đó là dây 2 buông sau đó lại quay về dây 1 đánh phím số 1 tương đương với 3 nốt G-B-F. Lưu ý số 0 nghĩa là đánh dây buông (open string) nhé.

E----3-------1----------------------------------------------------
B--------0--------------------------------------------------------
G-----------------------------------------------------------------
D-----------------------------------------------------------------
A-----------------------------------------------------------------
E-----------------------------------------------------------------

Ví dụ 2:

Nếu đang ôm đàn thì bạn thử đánh theo đoạn sau đây và đoán xem là bài gì nhé (kéo xuống cuối bài để xem đáp án):

E-----------------------------------0-----------------------------
B----------0-----3--2---------0--------3--------------------------
G----2--2-----2---------2--2-----2--------------------------------
D-----------------------------------------------------------------
A-----------------------------------------------------------------
E-----------------------------------------------------------------

Nếu như đọc khuôn nhạc thì bạn sẽ biết ngay đây là bài gì vì bạn biết mỗi một nốt phải đánh cho nó ngân lên trong bao lâu (trường độ) từ đó có thể cảm nhận được nhịp điệu của bài hát, thế nhưng tab chỉ cho ta biết bấm ở đâu (cao độ) chứ không cho ta biết thông tin về trường độ. Đây chính là cái dở của tab thế nhưng nếu bạn có nghe qua bài đó hoặc có clip ai đánh bài đó theo bản tab này bạn lại tập nhanh cực kỳ luôn.

Lưu ý: Trong trường hợp bạn thấy nhiều số xuất hiện thẳng hàng nghĩa là bạn sẽ phải đánh những nốt đó cùng một lúc, hoặc đó là một hợp âm

Cách bấm hợp âm Đô Trưởng
E----0-----------------------------------------------------
B----1-----------------------------------------------------
G----0-----------------------------------------------------
D----2-----------------------------------------------------
A----3-----------------------------------------------------
E----0-----------------------------------------------------
Đôi khi bạn sẽ thấy một số clip hướng dẫn trên mạng sẽ chỉ cách bấm hợp âm bằng cách đọc tab :
Đô Trưởng - 032010
Rê Thứ - 000231
...
Intro bài River Flows In You có rất nhiều chỗ phải đánh 2 dây cùng lúc
e ||--3--2--3--2-|-3-----3-----|------3--2--3--2-|-3-----3------|
B ||--------3----|----3-----1~-|---0--------3----|----3-----1~--|
G ||-----0-----0-|----0-----0~-|-0-------0-----0-|----0-----0~--|
D ||--2----------|-------------|------2----------|--------------|
A ||-------------|-3-----------|-----------------|-3------------|
E ||-------------|-------------|-----------------|--------------|